ISO-10303-21;
HEADER;
FILE_DESCRIPTION(('CATIA V5 STEP Exchange'),'2;1');

FILE_NAME('C:\\Users\\Astroboy\\Desktop\\RIDIX\\work\\RDBG212.455560.stp','2017-03-08T08:21:04+00:00',('none'),('none'),'CATIA Version 5 Release 19 GA (IN-10)','CATIA V5 STEP AP203','none');

FILE_SCHEMA(('CONFIG_CONTROL_DESIGN'));

ENDSEC;
/* file written by CATIA V5R19 */
DATA;
#5=PRODUCT('RDBG212.455560','','BOCCOLA AUTOLUBRIFICANTE\X2\000D\X0\\X2\000A\X0\NORMATIVE AUTOMOTIVE',(#2)) ;
#1=APPLICATION_CONTEXT('configuration controlled 3D design of mechanical parts and assemblies') ;
#14=PRODUCT_DEFINITION('',' ',#6,#3) ;
#16=SECURITY_CLASSIFICATION(' ',' ',#15) ;
#15=SECURITY_CLASSIFICATION_LEVEL('unclassified') ;
#47=CARTESIAN_POINT(' ',(0.,0.,0.)) ;
#51=CARTESIAN_POINT('Line Origine',(0.,0.,0.)) ;
#55=CARTESIAN_POINT('Limit',(0.,0.,0.)) ;
#56=CARTESIAN_POINT('Limit',(20.,0.,0.)) ;
#63=CARTESIAN_POINT('Line Origine',(0.,0.,0.)) ;
#67=CARTESIAN_POINT('Limit',(0.,0.,0.)) ;
#68=CARTESIAN_POINT('Limit',(0.,20.,0.)) ;
#72=CARTESIAN_POINT('Line Origine',(0.,0.,0.)) ;
#76=CARTESIAN_POINT('Limit',(0.,0.,0.)) ;
#77=CARTESIAN_POINT('Limit',(0.,0.,20.)) ;
#81=CARTESIAN_POINT('Punto.1',(0.,0.,0.)) ;
#83=CARTESIAN_POINT('Axis2P3D Location',(0.,0.,-58.5)) ;
#88=CARTESIAN_POINT('Axis2P3D Location',(0.,0.,-58.5)) ;
#92=CARTESIAN_POINT('Vertex',(-19.7456076425,10.7870746186,-58.5)) ;
#94=CARTESIAN_POINT('Vertex',(19.7456076425,-10.7870746186,-58.5)) ;
#97=CARTESIAN_POINT('Axis2P3D Location',(-21.0619814854,11.5062129265,-58.5)) ;
#101=CARTESIAN_POINT('Vertex',(-21.0619814854,11.5062129265,-60.)) ;
#104=CARTESIAN_POINT('Axis2P3D Location',(0.,0.,-60.)) ;
#108=CARTESIAN_POINT('Vertex',(21.0619814854,-11.5062129265,-60.)) ;
#111=CARTESIAN_POINT('Axis2P3D Location',(21.0619814854,-11.5062129265,-58.5)) ;
#123=CARTESIAN_POINT('Axis2P3D Location',(0.,0.,-58.5)) ;
#128=CARTESIAN_POINT('Axis2P3D Location',(0.,0.,-60.)) ;
#140=CARTESIAN_POINT('Axis2P3D Location',(0.,0.,-60.)) ;
#145=CARTESIAN_POINT('Axis2P3D Location',(0.,0.,-60.)) ;
#149=CARTESIAN_POINT('Vertex',(-23.192930297,12.670355568,-60.)) ;
#151=CARTESIAN_POINT('Vertex',(23.192930297,-12.670355568,-60.)) ;
#154=CARTESIAN_POINT('Line Origine',(-23.6632253745,12.9272789398,-58.)) ;
#158=CARTESIAN_POINT('Vertex',(-24.133520452,13.1842023116,-56.)) ;
#161=CARTESIAN_POINT('Axis2P3D Location',(0.,0.,-56.)) ;
#165=CARTESIAN_POINT('Vertex',(24.133520452,-13.1842023116,-56.)) ;
#168=CARTESIAN_POINT('Line Origine',(23.6632253745,-12.9272789398,-58.)) ;
#180=CARTESIAN_POINT('Axis2P3D Location',(0.,0.,-60.)) ;
#185=CARTESIAN_POINT('Axis2P3D Location',(0.,0.,-56.)) ;
#197=CARTESIAN_POINT('Axis2P3D Location',(0.,0.,-30.)) ;
#202=CARTESIAN_POINT('Line Origine',(-24.133520452,13.1842023116,-28.)) ;
#206=CARTESIAN_POINT('Vertex',(-24.133520452,13.1842023116,-2.84217094304E-014)) ;
#209=CARTESIAN_POINT('Axis2P3D Location',(0.,0.,-2.84217094304E-014)) ;
#213=CARTESIAN_POINT('Vertex',(24.133520452,-13.1842023116,-2.84217094304E-014)) ;
#216=CARTESIAN_POINT('Line Origine',(24.133520452,-13.1842023116,-28.)) ;
#228=CARTESIAN_POINT('Axis2P3D Location',(0.,0.,-2.84217094304E-014)) ;
#240=CARTESIAN_POINT('Axis2P3D Location',(0.,0.,-1.5)) ;
#245=CARTESIAN_POINT('Axis2P3D Location',(0.,0.,0.)) ;
#249=CARTESIAN_POINT('Vertex',(-21.0619814854,11.5062129265,0.)) ;
#251=CARTESIAN_POINT('Vertex',(21.0619814854,-11.5062129265,0.)) ;
#254=CARTESIAN_POINT('Axis2P3D Location',(-21.0619814854,11.5062129265,-1.5)) ;
#258=CARTESIAN_POINT('Vertex',(-19.7456076425,10.7870746186,-1.5)) ;
#261=CARTESIAN_POINT('Axis2P3D Location',(0.,0.,-1.5)) ;
#265=CARTESIAN_POINT('Vertex',(19.7456076425,-10.7870746186,-1.5)) ;
#268=CARTESIAN_POINT('Axis2P3D Location',(21.0619814854,-11.5062129265,-1.5)) ;
#280=CARTESIAN_POINT('Axis2P3D Location',(0.,0.,0.)) ;
#285=CARTESIAN_POINT('Axis2P3D Location',(0.,0.,-1.5)) ;
#297=CARTESIAN_POINT('Axis2P3D Location',(0.,0.,-30.)) ;
#302=CARTESIAN_POINT('Line Origine',(-19.7456076425,10.7870746186,-30.)) ;
#307=CARTESIAN_POINT('Line Origine',(19.7456076425,-10.7870746186,-30.)) ;
#326=CARTESIAN_POINT('Axis2P3D Location',(-26.4282032303,0.,-60.)) ;
#340=CARTESIAN_POINT('Axis2P3D Location',(-24.,0.,0.)) ;
#52=DIRECTION('Vector Direction',(1.,0.,0.)) ;
#64=DIRECTION('Vector Direction',(0.,1.,0.)) ;
#73=DIRECTION('Vector Direction',(0.,0.,1.)) ;
#84=DIRECTION('Axis2P3D Direction',(0.,0.,-1.)) ;
#85=DIRECTION('Axis2P3D XDirection',(-0.87758256189,0.479425538604,0.)) ;
#89=DIRECTION('Axis2P3D Direction',(0.,0.,-1.)) ;
#98=DIRECTION('Axis2P3D Direction',(-0.479425538604,-0.87758256189,-0.)) ;
#105=DIRECTION('Axis2P3D Direction',(0.,0.,-1.)) ;
#112=DIRECTION('Axis2P3D Direction',(0.479425538604,0.87758256189,0.)) ;
#124=DIRECTION('Axis2P3D Direction',(0.,0.,-1.)) ;
#129=DIRECTION('Axis2P3D Direction',(0.,0.,-1.)) ;
#141=DIRECTION('Axis2P3D Direction',(-0.,-0.,1.)) ;
#142=DIRECTION('Axis2P3D XDirection',(-0.87758256189,0.479425538604,0.)) ;
#146=DIRECTION('Axis2P3D Direction',(-0.,0.,1.)) ;
#155=DIRECTION('Vector Direction',(-0.227135080667,0.124084460099,0.965925826289)) ;
#162=DIRECTION('Axis2P3D Direction',(-0.,0.,1.)) ;
#169=DIRECTION('Vector Direction',(0.227135080667,-0.124084460099,0.965925826289)) ;
#181=DIRECTION('Axis2P3D Direction',(-0.,0.,1.)) ;
#186=DIRECTION('Axis2P3D Direction',(-0.,0.,1.)) ;
#198=DIRECTION('Axis2P3D Direction',(0.,0.,-1.)) ;
#199=DIRECTION('Axis2P3D XDirection',(-0.87758256189,0.479425538604,-0.)) ;
#203=DIRECTION('Vector Direction',(0.,0.,-1.)) ;
#210=DIRECTION('Axis2P3D Direction',(0.,0.,-1.)) ;
#217=DIRECTION('Vector Direction',(0.,0.,-1.)) ;
#229=DIRECTION('Axis2P3D Direction',(0.,0.,-1.)) ;
#241=DIRECTION('Axis2P3D Direction',(0.,0.,-1.)) ;
#242=DIRECTION('Axis2P3D XDirection',(-0.87758256189,0.479425538604,0.)) ;
#246=DIRECTION('Axis2P3D Direction',(0.,0.,-1.)) ;
#255=DIRECTION('Axis2P3D Direction',(-0.479425538604,-0.87758256189,-0.)) ;
#262=DIRECTION('Axis2P3D Direction',(0.,0.,-1.)) ;
#269=DIRECTION('Axis2P3D Direction',(0.479425538604,0.87758256189,0.)) ;
#281=DIRECTION('Axis2P3D Direction',(0.,0.,-1.)) ;
#286=DIRECTION('Axis2P3D Direction',(0.,0.,-1.)) ;
#298=DIRECTION('Axis2P3D Direction',(0.,0.,-1.)) ;
#299=DIRECTION('Axis2P3D XDirection',(-0.87758256189,0.479425538604,-0.)) ;
#303=DIRECTION('Vector Direction',(0.,0.,-1.)) ;
#308=DIRECTION('Vector Direction',(0.,0.,-1.)) ;
#327=DIRECTION('Axis2P3D Direction',(0.,0.,-1.)) ;
#328=DIRECTION('Axis2P3D XDirection',(1.,0.,0.)) ;
#341=DIRECTION('Axis2P3D Direction',(0.,0.,-1.)) ;
#342=DIRECTION('Axis2P3D XDirection',(1.,0.,0.)) ;
#48=AXIS2_PLACEMENT_3D(' ',#47,$,$) ;
#86=AXIS2_PLACEMENT_3D('Torus Axis2P3D',#83,#84,#85) ;
#90=AXIS2_PLACEMENT_3D('Circle Axis2P3D',#88,#89,$) ;
#99=AXIS2_PLACEMENT_3D('Circle Axis2P3D',#97,#98,$) ;
#106=AXIS2_PLACEMENT_3D('Circle Axis2P3D',#104,#105,$) ;
#113=AXIS2_PLACEMENT_3D('Circle Axis2P3D',#111,#112,$) ;
#125=AXIS2_PLACEMENT_3D('Circle Axis2P3D',#123,#124,$) ;
#130=AXIS2_PLACEMENT_3D('Circle Axis2P3D',#128,#129,$) ;
#143=AXIS2_PLACEMENT_3D('Cone Axis2P3D',#140,#141,#142) ;
#147=AXIS2_PLACEMENT_3D('Circle Axis2P3D',#145,#146,$) ;
#163=AXIS2_PLACEMENT_3D('Circle Axis2P3D',#161,#162,$) ;
#182=AXIS2_PLACEMENT_3D('Circle Axis2P3D',#180,#181,$) ;
#187=AXIS2_PLACEMENT_3D('Circle Axis2P3D',#185,#186,$) ;
#200=AXIS2_PLACEMENT_3D('Cylinder Axis2P3D',#197,#198,#199) ;
#211=AXIS2_PLACEMENT_3D('Circle Axis2P3D',#209,#210,$) ;
#230=AXIS2_PLACEMENT_3D('Circle Axis2P3D',#228,#229,$) ;
#243=AXIS2_PLACEMENT_3D('Torus Axis2P3D',#240,#241,#242) ;
#247=AXIS2_PLACEMENT_3D('Circle Axis2P3D',#245,#246,$) ;
#256=AXIS2_PLACEMENT_3D('Circle Axis2P3D',#254,#255,$) ;
#263=AXIS2_PLACEMENT_3D('Circle Axis2P3D',#261,#262,$) ;
#270=AXIS2_PLACEMENT_3D('Circle Axis2P3D',#268,#269,$) ;
#282=AXIS2_PLACEMENT_3D('Circle Axis2P3D',#280,#281,$) ;
#287=AXIS2_PLACEMENT_3D('Circle Axis2P3D',#285,#286,$) ;
#300=AXIS2_PLACEMENT_3D('Cylinder Axis2P3D',#297,#298,#299) ;
#329=AXIS2_PLACEMENT_3D('Plane Axis2P3D',#326,#327,#328) ;
#343=AXIS2_PLACEMENT_3D('Plane Axis2P3D',#340,#341,#342) ;
#40=PRODUCT_DEFINITION_SHAPE(' ',' ',#14) ;
#59=COMPOSITE_CURVE('Linea.1',(#58),.U.) ;
#71=COMPOSITE_CURVE('Linea.2',(#70),.U.) ;
#80=COMPOSITE_CURVE('Linea.3',(#79),.U.) ;
#58=COMPOSITE_CURVE_SEGMENT(.DISCONTINUOUS.,.T.,#57) ;
#70=COMPOSITE_CURVE_SEGMENT(.DISCONTINUOUS.,.T.,#69) ;
#79=COMPOSITE_CURVE_SEGMENT(.DISCONTINUOUS.,.T.,#78) ;
#31=APPROVAL_PERSON_ORGANIZATION(#25,#21,#19) ;
#25=PERSON_AND_ORGANIZATION(#22,#23) ;
#22=PERSON(' ',' ',' ',$,$,$) ;
#23=ORGANIZATION(' ',' ',' ') ;
#21=APPROVAL(#20,' ') ;
#20=APPROVAL_STATUS('not_yet_approved') ;
#19=APPROVAL_ROLE('APPROVER') ;
#13=DATE_AND_TIME(#11,#12) ;
#12=LOCAL_TIME(9,21,4.,#10) ;
#10=COORDINATED_UNIVERSAL_TIME_OFFSET(0,0,.AHEAD.) ;
#117=ORIENTED_EDGE('',*,*,#96,.F.) ;
#118=ORIENTED_EDGE('',*,*,#103,.T.) ;
#119=ORIENTED_EDGE('',*,*,#110,.T.) ;
#120=ORIENTED_EDGE('',*,*,#115,.F.) ;
#134=ORIENTED_EDGE('',*,*,#127,.F.) ;
#135=ORIENTED_EDGE('',*,*,#115,.T.) ;
#136=ORIENTED_EDGE('',*,*,#132,.T.) ;
#137=ORIENTED_EDGE('',*,*,#103,.F.) ;
#174=ORIENTED_EDGE('',*,*,#153,.F.) ;
#175=ORIENTED_EDGE('',*,*,#160,.T.) ;
#176=ORIENTED_EDGE('',*,*,#167,.T.) ;
#177=ORIENTED_EDGE('',*,*,#172,.F.) ;
#191=ORIENTED_EDGE('',*,*,#184,.F.) ;
#192=ORIENTED_EDGE('',*,*,#172,.T.) ;
#193=ORIENTED_EDGE('',*,*,#189,.T.) ;
#194=ORIENTED_EDGE('',*,*,#160,.F.) ;
#222=ORIENTED_EDGE('',*,*,#167,.F.) ;
#223=ORIENTED_EDGE('',*,*,#208,.T.) ;
#224=ORIENTED_EDGE('',*,*,#215,.T.) ;
#225=ORIENTED_EDGE('',*,*,#220,.F.) ;
#234=ORIENTED_EDGE('',*,*,#189,.F.) ;
#235=ORIENTED_EDGE('',*,*,#220,.T.) ;
#236=ORIENTED_EDGE('',*,*,#232,.T.) ;
#237=ORIENTED_EDGE('',*,*,#208,.F.) ;
#274=ORIENTED_EDGE('',*,*,#253,.F.) ;
#275=ORIENTED_EDGE('',*,*,#260,.T.) ;
#276=ORIENTED_EDGE('',*,*,#267,.T.) ;
#277=ORIENTED_EDGE('',*,*,#272,.F.) ;
#291=ORIENTED_EDGE('',*,*,#284,.F.) ;
#292=ORIENTED_EDGE('',*,*,#272,.T.) ;
#293=ORIENTED_EDGE('',*,*,#289,.T.) ;
#294=ORIENTED_EDGE('',*,*,#260,.F.) ;
#313=ORIENTED_EDGE('',*,*,#267,.F.) ;
#314=ORIENTED_EDGE('',*,*,#306,.T.) ;
#315=ORIENTED_EDGE('',*,*,#96,.T.) ;
#316=ORIENTED_EDGE('',*,*,#311,.F.) ;
#320=ORIENTED_EDGE('',*,*,#289,.F.) ;
#321=ORIENTED_EDGE('',*,*,#311,.T.) ;
#322=ORIENTED_EDGE('',*,*,#127,.T.) ;
#323=ORIENTED_EDGE('',*,*,#306,.F.) ;
#332=ORIENTED_EDGE('',*,*,#184,.T.) ;
#333=ORIENTED_EDGE('',*,*,#153,.T.) ;
#336=ORIENTED_EDGE('',*,*,#110,.F.) ;
#337=ORIENTED_EDGE('',*,*,#132,.F.) ;
#346=ORIENTED_EDGE('',*,*,#215,.F.) ;
#347=ORIENTED_EDGE('',*,*,#232,.F.) ;
#350=ORIENTED_EDGE('',*,*,#284,.T.) ;
#351=ORIENTED_EDGE('',*,*,#253,.T.) ;
#338=FACE_BOUND('',#335,.T.) ;
#352=FACE_BOUND('',#349,.T.) ;
#82=CLOSED_SHELL('Closed Shell',(#122,#139,#179,#196,#227,#239,#279,#296,#318,#325,#339,#353)) ;
#53=VECTOR('Line Direction',#52,1.) ;
#65=VECTOR('Line Direction',#64,1.) ;
#74=VECTOR('Line Direction',#73,1.) ;
#156=VECTOR('Line Direction',#155,1.) ;
#170=VECTOR('Line Direction',#169,1.) ;
#204=VECTOR('Line Direction',#203,1.) ;
#218=VECTOR('Line Direction',#217,1.) ;
#304=VECTOR('Line Direction',#303,1.) ;
#309=VECTOR('Line Direction',#308,1.) ;
#355=ADVANCED_BREP_SHAPE_REPRESENTATION('NONE',(#354),#46) ;
#49=SHAPE_REPRESENTATION(' ',(#48),#46) ;
#122=ADVANCED_FACE('PartBody',(#121),#87,.T.) ;
#139=ADVANCED_FACE('PartBody',(#138),#87,.T.) ;
#179=ADVANCED_FACE('PartBody',(#178),#144,.T.) ;
#196=ADVANCED_FACE('PartBody',(#195),#144,.T.) ;
#227=ADVANCED_FACE('PartBody',(#226),#201,.T.) ;
#239=ADVANCED_FACE('PartBody',(#238),#201,.T.) ;
#279=ADVANCED_FACE('PartBody',(#278),#244,.T.) ;
#296=ADVANCED_FACE('PartBody',(#295),#244,.T.) ;
#318=ADVANCED_FACE('PartBody',(#317),#301,.F.) ;
#325=ADVANCED_FACE('PartBody',(#324),#301,.F.) ;
#339=ADVANCED_FACE('PartBody',(#334,#338),#330,.T.) ;
#353=ADVANCED_FACE('PartBody',(#348,#352),#344,.F.) ;
#4=APPLICATION_PROTOCOL_DEFINITION('international standard','config_control_design',1994,#1) ;
#32=APPROVAL_DATE_TIME(#13,#21) ;
#354=MANIFOLD_SOLID_BREP('PartBody',#82) ;
#11=CALENDAR_DATE(2017,8,3) ;
#30=CC_DESIGN_APPROVAL(#21,(#16,#6,#14)) ;
#18=CC_DESIGN_DATE_AND_TIME_ASSIGNMENT(#13,#17,(#16)) ;
#29=CC_DESIGN_DATE_AND_TIME_ASSIGNMENT(#13,#28,(#14)) ;
#17=DATE_TIME_ROLE('classification_date') ;
#28=DATE_TIME_ROLE('creation_date') ;
#27=CC_DESIGN_PERSON_AND_ORGANIZATION_ASSIGNMENT(#25,#26,(#16)) ;
#33=CC_DESIGN_PERSON_AND_ORGANIZATION_ASSIGNMENT(#25,#34,(#6)) ;
#35=CC_DESIGN_PERSON_AND_ORGANIZATION_ASSIGNMENT(#25,#36,(#6,#14)) ;
#37=CC_DESIGN_PERSON_AND_ORGANIZATION_ASSIGNMENT(#25,#38,(#5)) ;
#26=PERSON_AND_ORGANIZATION_ROLE('classification_officer') ;
#34=PERSON_AND_ORGANIZATION_ROLE('design_supplier') ;
#36=PERSON_AND_ORGANIZATION_ROLE('creator') ;
#38=PERSON_AND_ORGANIZATION_ROLE('design_owner') ;
#39=CC_DESIGN_SECURITY_CLASSIFICATION(#16,(#6)) ;
#91=CIRCLE('generated circle',#90,22.5) ;
#100=CIRCLE('generated circle',#99,1.5) ;
#107=CIRCLE('generated circle',#106,24.) ;
#114=CIRCLE('generated circle',#113,1.5) ;
#126=CIRCLE('generated circle',#125,22.5) ;
#131=CIRCLE('generated circle',#130,24.) ;
#148=CIRCLE('generated circle',#147,26.4282032303) ;
#164=CIRCLE('generated circle',#163,27.5) ;
#183=CIRCLE('generated circle',#182,26.4282032303) ;
#188=CIRCLE('generated circle',#187,27.5) ;
#212=CIRCLE('generated circle',#211,27.5) ;
#231=CIRCLE('generated circle',#230,27.5) ;
#248=CIRCLE('generated circle',#247,24.) ;
#257=CIRCLE('generated circle',#256,1.5) ;
#264=CIRCLE('generated circle',#263,22.5) ;
#271=CIRCLE('generated circle',#270,1.5) ;
#283=CIRCLE('generated circle',#282,24.) ;
#288=CIRCLE('generated circle',#287,22.5) ;
#144=CONICAL_SURFACE('Cone',#143,26.4282032303,0.261799387799) ;
#62=SHAPE_REPRESENTATION_RELATIONSHIP(' ',' ',#49,#60) ;
#356=SHAPE_REPRESENTATION_RELATIONSHIP(' ',' ',#49,#355) ;
#201=CYLINDRICAL_SURFACE('generated cylinder',#200,27.5) ;
#301=CYLINDRICAL_SURFACE('generated cylinder',#300,22.5) ;
#87=TOROIDAL_SURFACE('homeo Torus',#86,24.,1.5) ;
#244=TOROIDAL_SURFACE('homeo Torus',#243,24.,1.5) ;
#3=DESIGN_CONTEXT(' ',#1,'design') ;
#96=EDGE_CURVE('',#93,#95,#91,.T.) ;
#103=EDGE_CURVE('',#93,#102,#100,.F.) ;
#110=EDGE_CURVE('',#102,#109,#107,.T.) ;
#115=EDGE_CURVE('',#95,#109,#114,.F.) ;
#127=EDGE_CURVE('',#95,#93,#126,.T.) ;
#132=EDGE_CURVE('',#109,#102,#131,.T.) ;
#153=EDGE_CURVE('',#150,#152,#148,.F.) ;
#160=EDGE_CURVE('',#150,#159,#157,.T.) ;
#167=EDGE_CURVE('',#159,#166,#164,.F.) ;
#172=EDGE_CURVE('',#152,#166,#171,.T.) ;
#184=EDGE_CURVE('',#152,#150,#183,.F.) ;
#189=EDGE_CURVE('',#166,#159,#188,.F.) ;
#208=EDGE_CURVE('',#159,#207,#205,.F.) ;
#215=EDGE_CURVE('',#207,#214,#212,.T.) ;
#220=EDGE_CURVE('',#166,#214,#219,.F.) ;
#232=EDGE_CURVE('',#214,#207,#231,.T.) ;
#253=EDGE_CURVE('',#250,#252,#248,.T.) ;
#260=EDGE_CURVE('',#250,#259,#257,.F.) ;
#267=EDGE_CURVE('',#259,#266,#264,.T.) ;
#272=EDGE_CURVE('',#252,#266,#271,.F.) ;
#284=EDGE_CURVE('',#252,#250,#283,.T.) ;
#289=EDGE_CURVE('',#266,#259,#288,.T.) ;
#306=EDGE_CURVE('',#259,#93,#305,.T.) ;
#311=EDGE_CURVE('',#266,#95,#310,.T.) ;
#116=EDGE_LOOP('',(#117,#118,#119,#120)) ;
#133=EDGE_LOOP('',(#134,#135,#136,#137)) ;
#173=EDGE_LOOP('',(#174,#175,#176,#177)) ;
#190=EDGE_LOOP('',(#191,#192,#193,#194)) ;
#221=EDGE_LOOP('',(#222,#223,#224,#225)) ;
#233=EDGE_LOOP('',(#234,#235,#236,#237)) ;
#273=EDGE_LOOP('',(#274,#275,#276,#277)) ;
#290=EDGE_LOOP('',(#291,#292,#293,#294)) ;
#312=EDGE_LOOP('',(#313,#314,#315,#316)) ;
#319=EDGE_LOOP('',(#320,#321,#322,#323)) ;
#331=EDGE_LOOP('',(#332,#333)) ;
#335=EDGE_LOOP('',(#336,#337)) ;
#345=EDGE_LOOP('',(#346,#347)) ;
#349=EDGE_LOOP('',(#350,#351)) ;
#121=FACE_OUTER_BOUND('',#116,.T.) ;
#138=FACE_OUTER_BOUND('',#133,.T.) ;
#178=FACE_OUTER_BOUND('',#173,.T.) ;
#195=FACE_OUTER_BOUND('',#190,.T.) ;
#226=FACE_OUTER_BOUND('',#221,.T.) ;
#238=FACE_OUTER_BOUND('',#233,.T.) ;
#278=FACE_OUTER_BOUND('',#273,.T.) ;
#295=FACE_OUTER_BOUND('',#290,.T.) ;
#317=FACE_OUTER_BOUND('',#312,.T.) ;
#324=FACE_OUTER_BOUND('',#319,.T.) ;
#334=FACE_OUTER_BOUND('',#331,.T.) ;
#348=FACE_OUTER_BOUND('',#345,.T.) ;
#61=GEOMETRIC_SET('NONE',(#59,#71,#80,#81)) ;
#60=GEOMETRICALLY_BOUNDED_SURFACE_SHAPE_REPRESENTATION('NONE',(#61),#46) ;
#45=UNCERTAINTY_MEASURE_WITH_UNIT(LENGTH_MEASURE(0.005),#41,'distance_accuracy_value','CONFUSED CURVE UNCERTAINTY') ;
#54=LINE('Line',#51,#53) ;
#66=LINE('Line',#63,#65) ;
#75=LINE('Line',#72,#74) ;
#157=LINE('Line',#154,#156) ;
#171=LINE('Line',#168,#170) ;
#205=LINE('Line',#202,#204) ;
#219=LINE('Line',#216,#218) ;
#305=LINE('Line',#302,#304) ;
#310=LINE('Line',#307,#309) ;
#2=MECHANICAL_CONTEXT(' ',#1,'mechanical') ;
#24=PERSONAL_ADDRESS(' ',' ',' ',' ',' ',' ',' ',' ',' ',' ',' ',' ',(#22),' ') ;
#330=PLANE('Plane',#329) ;
#344=PLANE('Plane',#343) ;
#43=PLANE_ANGLE_MEASURE_WITH_UNIT(PLANE_ANGLE_MEASURE(0.0174532925199),#42) ;
#7=PRODUCT_CATEGORY('part',$) ;
#9=PRODUCT_CATEGORY_RELATIONSHIP(' ',' ',#7,#8) ;
#6=PRODUCT_DEFINITION_FORMATION_WITH_SPECIFIED_SOURCE('',' ',#5,.NOT_KNOWN.) ;
#8=PRODUCT_RELATED_PRODUCT_CATEGORY('detail',$,(#5)) ;
#50=SHAPE_DEFINITION_REPRESENTATION(#40,#49) ;
#57=TRIMMED_CURVE('',#54,(#55),(#56),.T.,.CARTESIAN.) ;
#69=TRIMMED_CURVE('',#66,(#67),(#68),.T.,.CARTESIAN.) ;
#78=TRIMMED_CURVE('',#75,(#76),(#77),.T.,.CARTESIAN.) ;
#93=VERTEX_POINT('',#92) ;
#95=VERTEX_POINT('',#94) ;
#102=VERTEX_POINT('',#101) ;
#109=VERTEX_POINT('',#108) ;
#150=VERTEX_POINT('',#149) ;
#152=VERTEX_POINT('',#151) ;
#159=VERTEX_POINT('',#158) ;
#166=VERTEX_POINT('',#165) ;
#207=VERTEX_POINT('',#206) ;
#214=VERTEX_POINT('',#213) ;
#250=VERTEX_POINT('',#249) ;
#252=VERTEX_POINT('',#251) ;
#259=VERTEX_POINT('',#258) ;
#266=VERTEX_POINT('',#265) ;
#41=(LENGTH_UNIT()NAMED_UNIT(*)SI_UNIT(.MILLI.,.METRE.)) ;
#42=(NAMED_UNIT(*)PLANE_ANGLE_UNIT()SI_UNIT($,.RADIAN.)) ;
#44=(NAMED_UNIT(*)SI_UNIT($,.STERADIAN.)SOLID_ANGLE_UNIT()) ;
#46=(GEOMETRIC_REPRESENTATION_CONTEXT(3)GLOBAL_UNCERTAINTY_ASSIGNED_CONTEXT((#45))GLOBAL_UNIT_ASSIGNED_CONTEXT((#41,#42,#44))REPRESENTATION_CONTEXT(' ',' ')) ;
ENDSEC;
END-ISO-10303-21;
